Nuclear Family (song lyrics & info)
Track 1 on ¡UNO!
Released 2012
Standard Tuning

Intro:
e|------------------------------------------------------------------|
B|------------------------------------------------------------------|
G|--9-99-9-9999999--------------------------------------------------|
D|--9-99-9-9999999--------------------------------------------------| X2
A|--7-77-7-7777777--------------------------------------------------|
E|------------------------------------------------------------------|


Lead-In:

Guitar 1:
e|------------------------------------------------------------------|
B|------------------------------------------------------------------|
G|--9999999999999999----------999--------9--------------------------|
D|--9999999999999999-77777777-999-9-999--9--------------------------| X2
A|--7777777777777777-77777777-777-9-999--7--------------------------|
E|-------------------55555555-----7-777-----------------------------|

Guitar 2:
e|------------------------------------------------------------------|
B|------------------------------------------------------------------|
G|--9-999-99-8-6-4-4------------------------------------------------|
D|--x-xxx-xx-x-x-x-x------------------------------------------------|
A|--7-777-77-6-4-2-2------------------------------------------------|
E|------------------------------------------------------------------|


Verse:
e|------------------------------------------------------------------|
B|------------------------------------------------------------------|
G|-----------999-------9--------------------------------------------|
D|--7-777777-999-9-999-9--------------------------------------------| X4
A|--7-777777-777-9-999-7--------------------------------------------|
E|--5-555555-----7-777----------------------------------------------|


Chorus:
e|------------------------------------------------------------------|
B|------------------------------------------------------------------|
G|-----------------9-x-99-x-9-9-9999--------------------------------|
D|--77777777--(x4)-9-x-99-x-9-9-9999--------------------------------|
A|--77777777-------7-x-77-x-7-7-7777--------------------------------|
E|--55555555--------------------------------------------------------|

e|------------------------------------------------------------------|
B|------------------------------------------------------------------|
G|------------------------------------------------------------------|
D|--77777777--(x4)---9-x-99-x-9-9-9999------------------------------|
A|--77777777---------9-x-99-x-9-9-9999------------------------------|
E|--55555555---------7-x-77-x-7-7-7777------------------------------|


Solo:

e|------------------------------------------------------------------|
B|--5--5-5-5-5-5-5-5--5--3--2--2~--5--5-5-5-5-5-5-5---7--9--9~------|
G|--7b-7b7b7b7b7b7b7b--------------7b-7b7b7b7b7b7b7b----------------|
D|------------------------------------------------------------------|
A|------------------------------------------------------------------|
E|------------------------------------------------------------------|

e|------------------------------------------------------------------|
B|--9-9---10-10--12-12-12----12-10-12-10----------------------------|
G|--9-9----9--9---9--9--9-----9--9--9--9----------------------------|
D|------------------------------------------------------------------|
A|------------------------------------------------------------------|
E|------------------------------------------------------------------|

e|----5--5--5--5--5-------------------5--5--5--5--5--5--5--5--5--5--|
B|--5--5--5--5--5--5---5--3--2--2---5--5--5--5--5--5--5--5--5--5----|
G|--7b 7b-7b-7b-7b-7b---------------7b-7b-7b-7b-7b-7b-7b-7b-7b-7b---|
D|------------------------------------------------------------------|
A|------------------------------------------------------------------|
E|------------------------------------------------------------------|

e|------------7-----------------------------------------------------|
B|-----------7-7---10b~-(10b)(10b)----------------------------------|
G|--9p7-7h-9b-------------------------------------------------------|
D|-----9------------------------------------------------------------|
A|------------------------------------------------------------------|
E|------------------------------------------------------------------|


(3rd Verse) Guitar 2:
e|--7---7------7-----|-0-0--0-0-0-0-0-------------------------------|
B|---5-5--5--5---5---|-5-5--5-5-5-3-2-------------------------------|
G|-------------------|----------------------------------------------|
D|-------------------|----------------------------------------------|
A|-------------------|----------------------------------------------|
E|-------------------|----------------------------------------------|


Outro:

Guitar 1:
e|------------------------------------------------------------------|
B|------------------------------------------------------------------|
G|--9---------------------------------------------------------------|
D|--9--(Until End)--------------------------------------------------|
A|--7---------------------------------------------------------------|
E|------------------------------------------------------------------|

Guitar 2:
e|------------------------------------------------------------------|
B|------------------------------------------------------------------|
G|--9-999-99-8-6-4-4---9-999-11-13----------------------------------|
D|--x-xxx-xx-x-x-x-x---x-xxx-x--x-----------------------------------|
A|--7-777-77-6-4-2-2---7-777-9--11----------------------------------|
E|------------------------------------------------------------------|


KEY: x = mute note
h = hammer-on
b = bend string
~ = let note ring


SONG ORDER:
- Intro
- Lead-In (w/ Lead-In Guitar 2)
- Verse
- Chorus
- Verse
- Chorus
- Verse
- Solo (Chorus played underneath)
- Verse (w/ 3rd Verse Guitar 2)
- Chorus
- Out (w/ Outro Guitar 2)


< Back to album: ¡UNO!
Did we miss something? Submit News.
December 2017
S M T W T F S
     12
3456789
10111213141516
17181920212223
24252627282930
31
Happening this month:
Dec 09:
Happy Birthday Tre Cool! He turns 45 today.
Dec 25:
Merry Christmas!
Poll