Carpe Diem (song lyrics & info)
Track 2 on ¡UNO!
Released 2012
The Green Day Authority


Standard Tuning

Intro:
e|-------------------------------------------------------------------------------------|
B|-------------------------------------------------------------------------------------|
G|--6-66666------66666666------66666666-----66666666------66---------------------------|
D|--6-66666--4-6-66666666--6-4-66666666-4-6-66666666--6-4-66---------------------------|
A|--4-44444--4-6-44444444--6-4-46444444-4-6-44444444--6-4-44---------------------------|
E|-----------2-4-----------4-2----------2-4-----------4-2------------------------------|


Verse:

Guitar 1:
e|-------------------------------------------------------------------------------------|
B|-------------------------------------------------------------------------------------|
G|----6---------6---------6-------6----------------------------------------------------|
D|--6-6-------6-6-------6-6-------6-66666----------------------------------------------| X4
A|--6-4-------6-4-------6-4-------4-66666----------------------------------------------|
E|--4---------4---------4-----------44444----------------------------------------------|

Guitar 2: (Palm-muted)
e|-------------------------------------------------------------------------------------|
B|-------------------------------------------------------------------------------------|
G|--6666666666666666-------------------------------------------------------------------|
D|--6666666666666666-------------------------------------------------------------------| X4
A|--4444444444444444-------------------------------------------------------------------|
E|-------------------------------------------------------------------------------------|


Chorus:

Guitar 1:
e|-------------------------------------------------------------------------------------|
B|-------------------------------------------------------------------------------------|
G|--666666-----66666666-----6---------------66666666-----------------------------------|
D|--666666-4-6-66666666-6-6-6-[X2}-44444444-66666666-----------------------------------|
A|--444444-4-6-44444444-6-6-4------44444444-44444444-[X3]------------------------------|
E|---------2-4----------4-2--------22222222--------------------------------------------|

e|-------------------------------------------------------------------------------------|
B|-------------------------------------------------------------------------------------|
G|-------------------------------------------------------------------------------------|
D|--66---66---66---66------------------------------------------------------------------|
A|--66---66---66---66------------------------------------------------------------------|
E|--44---44---44---44------------------------------------------------------------------|

Guitar 2:
e|-------------------------------------------------------------------------------------|
B|-------------------------------------------------------------------------------------|
G|--666666-----66666666-----6----------------66-8-6-5-6---66-8-6-8-10------------------|
D|--666666-4-6-66666666-6-6-6-(X2)-----------xx-x-x-x-x---xx-x-x-x-x-------------------|
A|--444444-4-6-44444444-6-6-4----------------44-6-4-3-4---44-6-4-6-8-------------------|
E|---------2-4----------4-2------------------------------------------------------------|


Solo:
e|-------------------------------------------------------------------------------------|
B|-----9----9----9---9---9---9---13b--------------------------------------------13b----|
G|--11b--11b--11b----11b-11b-11b------11b-11b-11b-11b-11-10-----11b-11b-11b-11b--------|
D|----------------------------------------------------------11-------------------------|
A|-------------------------------------------------------------------------------------|
E|-------------------------------------------------------------------------------------|

e|-------------------------------------------------------------------------------------|
B|-------------------------------------------------------------------------------------|
G|--11b-11b-11b-11b-11-10--------------------------------------------------------------|
D|------------------------11~----------------------------------------------------------|
A|-------------------------------------------------------------------------------------|
E|-------------------------------------------------------------------------------------|


Bridge:
e|-------------------------------------------------------------------------------------|
B|-------------------------------------------------------------------------------------|
G|-------------------------------------------------------------------------------------|
D|--44444444-66666666-------66--66--66--66---------------------------------------------|
A|--44444444-66666666-[x3]--66--66--66--66---------------------------------------------|
E|--22222222-44444444-------44--44--44--44---------------------------------------------|
******** ********

e|-------------------------------------------------------------------------------------|
B|-------------------------------------------------------------------------------------|
G|--6-66666------66666666------66666666-----66666666------6----------------------------|
D|--6-66666--4-6-66666666--6-4-66666666-4-6-66666666--6-4-6----------------------------|
A|--4-44444--4-6-44444444--6-4-46444444-4-6-44444444--6-4-4----------------------------|
E|-----------2-4-----------4-2----------2-4-----------4-2------------------------------|


KEY: / = slide up
\ = slide down
b = bend
~ = let note ring
* = palm mute chord


SONG ORDER:
- Intro
- Verse
- Chorus
- Verse
- Chorus
- Solo
- Bridge
- Chorus


< Back to album: ¡UNO!
Did we miss something? Submit News.
December 2017
S M T W T F S
     12
3456789
10111213141516
17181920212223
24252627282930
31
Happening this month:
Dec 09:
Happy Birthday Tre Cool! He turns 45 today.
Dec 25:
Merry Christmas!
Poll