Kill The DJ (song lyrics & info)
Track 5 on ¡UNO!
Released 2012
The Green Day Authority


Standard Tuning

Intro:

Guitar 1:
e|------------------------------------------------------------|
B|------------------------------------------------------------|
G|------------------------------------------------------------|
D|------------------------------------------------------------|
A|------------------------------------------------------------|
E|--5-5-5-5-5-5-5-553-----------------------------------------|


Verse:

Guitar 1:
e|------------------------------------------------------------|
B|------------------------------------------------------------|
G|------------------------------------------------------------|
D|------------------------------------------------------------| (X2)
A|---------x55--------------x55-------------------------------|
E|--55-x55-----x3333-55-x55-----x3333-------------------------|

Guitar 2:
e|---5----------------5---------------------------------------|
B|---5-------7--------5-------7-------------------------------|
G|---5-------7--------5-------7-------------------------------|
D|-----------7----------------7-------------------------------| (X2)
A|------------------------------------------------------------|
E|------------------------------------------------------------|


Pre-Chorus:

Guitar 1:
e|------------------------------------------------------------|
B|------------------------------------------------------------|
G|------------------------------------------------------------|
D|------------------------------------------------------------|
A|---------x55-x55353--------x55-xx5--------------------------|
E|--00-x00------------00-x00----------------------------------|

Guitar 2:
e|------------------------------------------------------------|
B|------------------------------------------------------------|
G|------------xx77575-----------------------------------------|
D|------------------------------------------------------------|
A|------------------------------------------------------------|
E|------------------------------------------------------------|


Chorus:

Guitar 1:
e|------------------------------------------------------------|
B|------------------------------------------------------------|
G|------------------------------------------------------------|
D|------------------------------------------------------------| (X2)
A|---------x55--------------x55-------------------------------|
E|--55-x55-----x3333-55-x55-----x3333-------------------------|

e|------------------------------------------------------------|
B|------------------------------------------------------------|
G|------------------------------------------------------------|
D|------------------------------------------------------------|
A|----------55---------------55-------------------------------|
E|--55-x55-5---x3333-55-x55-5---x3333-5-5-5-5-5-5-5-553-------|

Guitar 2:
e|------------------------------------------------------------|
B|--5--5-5--5--5-5--7--7-7--8--8--5--5-5--5--5-5--7--xx--8b---|
G|--5--5-5--5--5-5--7--7-7--7--7--5--5-5--5--5-5--7--xx-7--7-5|
D|--5--5-5--5--5-5--7--7-7--------5--5-5--5--5-5--7--xx-------|
A|------------------------------------------------------------|
E|------------------------------------------------------------|


Post-Chorus:

Guitar 1:
e|------------------------------------------------------------------|
B|------------------------------------------------------------------|
G|------------------------------------------------------------------|
D|------------------------------------------------------------------|
A|---------3-3--3--------------------------3-3--3-------------------|
E|--1-1--1--------3-3--3--5-5-5-0-0-1-1--1--------0-0-0-0-0--3-0-3--|

Guitar 2:
e|--5------8------3-------5---------5------8------0-0-0-0-0--3------|
B|--6------8------3-------5---------6------8------------------------|
G|--5------9------4-------5---------5------9------------------------|
D|------------------------------------------------------------------|
A|------------------------------------------------------------------|
E|------------------------------------------------------------------|


Fill 1:

e|-----------------------------------------------------------------------|
B|------xx-5-5-5/7--x--xx-----------x--17-17-17-17/-xx---------xx---8----|
G|--7b--xx-5-5-5/7--x--xx-7-7-5-7-5-x--17-17-17-17/-xx-5-5-5/7-xx-7b-7-5-|
D|--7b--xx-5-5-5/7--x--xx-----------x--17-17-17-17/-xx-5-5-5/7-xx--------|
A|--7b-------------------------------------------------------------------|
E|-----------------------------------------------------------------------|


Fill 2:

Guitar 1: (Palm-muted)
e|------------------------------------------------------------|
B|------------------------------------------------------------|
G|------------------------------------------------------------|
D|------------------------------------------------------------|
A|--------------7777------------7777------------7777----------|
E|--555577778888----555577778888----555577778888----5----553--|

Guitar 2: (Palm-muted)
e|------------------------------------------------------------|
B|------------------------------------------------------------|
G|--------------------------------------------------9999------|
D|----------------------------------7777999910101010----7-----|
A|------------------------------------------------------------|
E|------------------------------------------------------------|


Solo:

e|----------------------------------------------------------------------|
B|------xx-5-5-5/7--x--xx-----------x-17-17-17-17/-xx---------xx---8----|
G|--7b--xx-5-5-5/7--x--xx-7-7-5-7-5-x-17-17-17-17/-xx-5-5-5/7-xx-7b-7-5-|
D|--7b--xx-5-5-5/7--x--xx-----------x-17-17-17-17/-xx-5-5-5/7-xx--------|
A|--7b------------------------------------------------------------------|
E|----------------------------------------------------------------------|

e|-------------------------------------------------------------------------|
B|------xx-5-5-5/7--x--xx-----------x-17-17-17-17/-xx---------xx-----------|
G|--7b--xx-5-5-5/7--x--xx-7-7-5-7-5-x-17-17-17-17/-xx-5-5-5/7-xx-7-7-5-7-5-|
D|--7b--xx-5-5-5/7--x--xx-----------x-17-17-17-17/-xx-5-5-5/7-xx-----------|
A|--7b---------------------------------------------------------------------|
E|-------------------------------------------------------------------------|

e|--5------8------3-------5---------5------8------0-0-0-0-0--3------|
B|--6------8------3-------5---------6------8------------------------|
G|--5------9------4-------5---------5------9------------------------|
D|------------------------------------------------------------------|
A|------------------------------------------------------------------|
E|------------------------------------------------------------------|


Bridge:

Guitar 1:
e|------------------------------------------------------------|
B|------------------------------------------------------------|
G|------------------------------------------------------------|
D|------------------------------------------------------------|
A|------------------------------------------------------------|
E|--5-(x37)---------------------------------------------------|

Guitar 2: (Palm-muted)
e|------------------------------------------------------------|
B|------------------------------------------------------------|
G|------------------------------------------------------------|
D|------------------------------------------------------------| (X7)
A|--------------7777------------------------------------------|
E|--555577778888----------------------------------------------|


Outro:

e|--5~--------------------------------------------------------|
B|--5~--------------------------------------------------------|
G|--5~--------------------------------------------------------|
D|------------------------------------------------------------|
A|------------------------------------------------------------|
E|------------------------------------------------------------|


KEY: x = mute note
~ = let note ring
b = bend note up
br = return from bend


SONG ORDER:
-Intro
-Verse
-Pre-Chorus
-Chorus
-Post-Chorus
-Fill 1
-Verse
-Pre-Chorus
-Chorus
-Post-Chorus
-Fill 2
-Solo (Guitar 1 plays Verse underneath)
-Post-Chorus
-Bridge
-Chorus
-Outro


< Back to album: ¡UNO!
Did we miss something? Submit News.
December 2017
S M T W T F S
     12
3456789
10111213141516
17181920212223
24252627282930
31
Happening this month:
Dec 09:
Happy Birthday Tre Cool! He turns 45 today.
Dec 25:
Merry Christmas!
Poll