Loss Of Control (song lyrics & info)
Track 7 on ¡UNO!
Released 2012
The Green Day Authority

Standard Tuning

Intro
e|---------------------------------------------------------------------|
B|---------------------------------------------------------------------|
G|--9~------------9~------------------6-6-4-2--------------------------|
D|--9~----------0-9~------------------6-6-4-2--------------------------|
A|--7~----------0-7~------------------4-4-2-0--------------------------|
E|--0~----------0-0~---------------------------------------------------|


Main Riff
e|---------------------------0-0-0-0-----------------------------------|
B|---------------------------0-0-0-0-----------------------------------|
G|--2-2-2-2-2-2--------------x-x-x-x---6-6-4-2-------------------------|
D|--2-2-2-2-2-2-0-6-6-4------2-2-2-2-0-6-6-4-2-------------------------|x2
A|--0-0-0-0-0-0-0-6-6-4----2-2-2-2-2-0-4-4-2-0-------------------------|
E|--------------0-4-4-2-0--0-0-0-0-0-0---------------------------------|


Verses
e|---------------------------------------------------------------------|
B|----------------------------------------------------9---9---9-10-9---|
G|--2-2-2-2-2-2-2-2--9-9-9-9-9-9-9-9------------------9-9-9-9-9-9--9---|
D|--2-2-2-2-2-2-2-2--9-9-9-9-9-9-9-9--7-7-7-7-7-7-7-7-9-9-9-9-9-9--9---|x2
A|--0-0-0-0-0-0-0-0--7-7-7-7-7-7-7-7--7-7-7-7-7-7-7-7-7-7-7-7-7-7--7---|
E|------------------------------------5-5-5-5-5-5-5-5------------------|


Pre-Chorus
e|---------------------------------0-0-0-0-0-0-0-----------------------|
B|---------------------------------x-x-x-x-x-x-x-----------------------|
G|---------------------------------x-x-x-x-x-x-x-----------------------|
D|--2-2-4-5--5-5-5-5-3-5-5-5-4--2--2-2-2-2-2-2-2-----------------------|x2
A|--2-2-4-5--5-5-5-5-5-5-5-5-4--2--2-2-2-2-2-2-2-----------------------|
E|--0-0-2-3--3-3-3-3-3-3-3-3-2--0--0-0-0-0-0-0-0-----------------------|


Chorus
e|---------------------------------------------------------------------|
B|---------------------------------------------------------------------|
G|--7--7--7--7------7--------7----7--7--7--7--9--9--9--9--6-6-4-2------|
D|--7--7--7--7--7-7-7-7--7-7-7-7--7--7--7--7--9--9--9--9--6-6-4-2------|
A|--5--5--5--5--7-7-5-7--7-7-5-7--5--5--5--5--7--7--7--7--4-4-2-0------|
E|--------------5-5---5--5-5---5--------------0--0--0--0---------------|


Main Riff Melody
e|---------------------------------------------------------------------|
B|----2---2-----2------------------------------------------------------|
G|----4b--4b----4b-4-2-4~----------------------------------------------|
D|---------------------------------------------------------------------|
A|---------------------------------------------------------------------|
E|---------------------------------------------------------------------|


Solo Part 1
e|---------------------------------------------------------12----------|
B|----2---2-----2-----------------------2---2---2----------------------|
G|----4b--4b----4b-4-2-4---2-1----------4b--4b--4b-4-2-4-13------------|
D|---------------------------------------------------------------------|
A|---------------------------------------------------------------------|
E|------------------------------13/------------------------------------|

Solo Part 2 (Coming Soon)

KEY: x = mute string
/ = slide
~ = let note ring


SONG ORDER:
- Intro
- Main Riff
- Verse
- Pre-Chorus
- Chorus
- Main Riff & Main Riff Melody
- Verse
- Pre-Chorus
- Chorus
- Main Riff & Main Riff Melody
- Solo
- Pre-Chorus
- Chorus
- Main Riff & Main Riff Melody


< Back to album: ¡UNO!
Did we miss something? Submit News.
December 2017
S M T W T F S
     12
3456789
10111213141516
17181920212223
24252627282930
31
Happening this month:
Dec 09:
Happy Birthday Tre Cool! He turns 45 today.
Dec 25:
Merry Christmas!
Poll