Sweet 16 (song lyrics & info)
Track 10 on ¡UNO!
Released 2012
The Green Day Authority


Standard Tuning

Intro/Post-Chorus:

Guitar 1:
e|--3333---2----3333---2----3333---2-0--0-----3-------------------------------|
B|--3333---3----3333---3----3333---3-1--1-----3-------------------------------|
G|--0000---2----0000---2----0000---2-0--0-----0-------------------------------|
D|--0000---0----0000---0----0000---0-2--0--0--0-------------------------------|
A|--2222--------2222--------2222-----3--2--0--2-------------------------------|
E|--3333--------3333--------3333--------------3-------------------------------|

Guitar 2:
e|----------------------------------------------------------------------------|
B|----------------------------------------------------------------------------|
G|---------7-----------7-----------7-5--5--2----------------------------------|
D|--5555---7----5555---7----5555---7-5--5--2--5-------------------------------|
A|--5555---5----5555---5----5555---5-3--2--0--5-------------------------------|
E|--3333--------3333--------3333--------------3-------------------------------|


Verse:

Guitar 1: (let chords ring)
e|--3~---2~---0~---2~---3~---2~---0~---2~---22--------------------------------|
B|--3~---3~---1~---3~---3~---3~---1~---3~---33--------------------------------|
G|--0~---4~---2~---2~---0~---4~---2~---2~---22--------------------------------|
D|--0~---4~---2~---0~---0~---4~---2~---0~---00--------------------------------|
A|--2~---2~---0~--------2~---2~---0~------------------------------------------|
E|--3~------------------3~----------------------------------------------------|

e|-----3333-----2222-----0000--2222222----------------------------------------|
B|-----3333-----3333-----1111--3333333----------------------------------------|
G|-----0000--4444444--2222222--2222222----------------------------------------|
D|--0000000--4444444--2222222--0000000----------------------------------------| X2
A|--2222222--2222222--0000000-------------------------------------------------|
E|--3333333-------------------------------------------------------------------|

Guitar 2: (let chords ring)
e|--3~---2~---5~--------3~---2~---5~------------------------------------------|
B|--3~---3~---5~---7~---3~---3~---5~---7~---77--------------------------------|
G|--4~---4~---5~---7~---4~---4~---5~---7~---77--------------------------------|
D|--5~---4~---7~---7~---5~---4~---7~---7~---77--------------------------------|
A|--5~---2~---7~---5~---5~---2~---7~---5~---55--------------------------------|
E|--3~--------5~--------3~--------5~------------------------------------------|

e|-----------7--(X7)--5--(X7)-------------------------------------------------|
B|--12--(X7)-7--------5--------7--(X7)----------------------------------------|
G|--12-------7--------5--------7----------------------------------------------|
D|--12-------9--------7--------7----------------------------------------------| X2
A|--10-------9--------7--------5----------------------------------------------|
E|-----------7--------5-------------------------------------------------------|


Chorus:

Guitar 1:
e|--0000--333333--2222--777777--0000--222222--3333--00--333-------------------|
B|--1111--333333--3333--888888--1111--333333--3333--11--333-------------------|
G|--0000--000000--4444--999999--0000--222222--0000--00--000-------------------|
D|--2222--000000--4444--999999--2222--000000--0000--22--000-------------------|
A|--3333--222222--2222--777777--3333----------2222--33--222-------------------|
E|--------333333------------------------------3333------333-------------------|

e|--0000--333333--2222--0000-22--0000--222222---------------------------------|
B|--1111--333333--3333--1111-33--1111--333333---------------------------------|
G|--0000--000000--4444--0000-22--0000--222222---------------------------------|
D|--2222--000000--4444--2222-00--2222--000000---------------------------------|
A|--3333--222222--2222--3333-----3333-----------------------------------------|
E|--------333333--------------------------------------------------------------|

e|--0000--222222--0000--222222------------------------------------------------|
B|--1111--333333--1111--333333------------------------------------------------|
G|--0000--222222--0000--222222------------------------------------------------|
D|--2222--000000--2222--000000------------------------------------------------|
A|--3333----------3333--------------------------------------------------------|
E|----------------------------------------------------------------------------|

Guitar 2:
e|----------------2222--------------------------------------------------------|
B|----------------3333--------------------------------------------------------|
G|--5555----------4444--999999--5555--777777--------55------------------------|
D|--5555--555555--4444--999999--5555--777777--5555--55--555-------------------|
A|--3333--555555--2222--777777--3333--555555--5555--33--555-------------------|
E|--------333333------------------------------3333------333-------------------|

e|----------------2222--------------------------------------------------------|
B|----------------3333--------------------------------------------------------|
G|--5555----------4444--5555-77--5555--777777---------------------------------|
D|--5555--555555--4444--5555-77--5555--777777---------------------------------|
A|--3333--555555--2222--3333-55--3333--555555---------------------------------|
E|--------333333--------------------------------------------------------------|

e|----------------------------------------------------------------------------|
B|----------------------------------------------------------------------------|
G|--5555--777777--5555--777777------------------------------------------------|
D|--5555--777777--5555--777777------------------------------------------------|
A|--3333--555555--3333--555555------------------------------------------------|
E|----------------------------------------------------------------------------|


Solo:
e|----------------------------------------------------------------------------|
B|----------------------------------------------------------------------------|
G|--7/12~12-11/7-7~7/5-5-5-4-5-5/7--------------------------------------------|
D|----------------------------------------------------------------------------| (2X)
A|----------------------------------------------------------------------------|
E|----------------------------------------------------------------------------|

e|----------------------------------------------------------------------------|
B|---------12--12--12---------------------------------------------------------|
G|--7/12-12--12--12--11/7-7~7/5-5-5-4-5-5/7-7-7-77----------------------------|
D|----------------------------------------------------------------------------|
A|----------------------------------------------------------------------------|
E|----------------------------------------------------------------------------|

e|----------------------------------------------------------------------------|
B|------------12-----12--12-10--------12--------13-----------13-----15--15~~--|
G|--7/12-12-12--12-12--12-----12-12-12--12-12-12--12-12-12-12--12-11--11------|
D|----------------------------------------------------------------------------|
A|----------------------------------------------------------------------------|
E|----------------------------------------------------------------------------|


Solo Backing:

Guitar 1:
e|-----3333-----2222-----0000--2222222----------------------------------------|
B|-----3333-----3333-----1111--3333333----------------------------------------|
G|-----0000--4444444--2222222--2222222----------------------------------------|
D|--0000000--4444444--2222222--0000000----------------------------------------| X4
A|--2222222--2222222--0000000-------------------------------------------------|
E|--3333333-------------------------------------------------------------------|

Guitar 2:
e|-----------7--(X7)--5--(X7)-------------------------------------------------|
B|--12--(X7)-7--------5--------7--(X7)----------------------------------------|
G|--12-------7--------5--------7----------------------------------------------|
D|--12-------9--------7--------7----------------------------------------------| X4
A|--10-------9--------7--------5----------------------------------------------|
E|-----------7--------5-------------------------------------------------------|


Outro:

Guitar 1:
e|--3333---2----3333---2----3333---2-0--0-----3-----3/------------------------|
B|--3333---3----3333---3----3333---3-1--1-----3-----3/------------------------|
G|--0000---2----0000---2----0000---2-0--0-----0-----0/------------------------|
D|--0000---0----0000---0----0000---0-2--0--0--0-----0/------------------------|
A|--2222--------2222--------2222-----3--2--0--2-----2/------------------------|
E|--3333--------3333--------3333--------------3-----3/------------------------|

Guitar 2:
e|----------------------------------------------------------------------------|
B|----------------------------------------------------------------------------|
G|----------7-----------7-----------7-5--5--2--------12-----------------------|
D|--5555---7----5555---7----5555---7-5--5--2--5-----10------------------------|
A|--5555---5----5555---5----5555---5-3--2--0--5-----10------------------------|
E|--3333--------3333--------3333--------------3-------------------------------|


KEY: ~ = let note ring
/ = slide to note


SONG ORDER:
- Intro
- Verse
- Chorus
- Post-Chorus
- Verse
- Chorus
- Post-Chorus
- Solo (Guitars 1 & 2 solo backing under)
- Chorus
- Outro


< Back to album: ¡UNO!
Did we miss something? Submit News.
December 2017
S M T W T F S
     12
3456789
10111213141516
17181920212223
24252627282930
31
Happening this month:
Dec 09:
Happy Birthday Tre Cool! He turns 45 today.
Dec 25:
Merry Christmas!
Poll