Oh Love (song lyrics & info)
Track 12 on ¡UNO!
Released 2012
The Green Day Authority


Standard Tuning

Intro/Verse:
e|---------------------------------------------------------------------------------|
B|---------------------------------------------------------------------------------|
G|----------------6-----------6-6-66666-66---------6-------------------------------|
D|------6-6-------6-6-6-------6-6-66666-66-6-6-----6-------------------------------| X4
A|--x-x-6-6-x-x-x-4-6-6-x-x-x-4-4-44444-44-6-6-x-x-4-------------------------------|
E|--x-x-4-4-x-x-x---4-4-x-x-x--------------4-4-x-x---------------------------------|


Pre-Chorus:
e|---------------------------------------------------------------------------------|
B|---------------------------------------------------------------------------------|
G|------------6------------6-5-6---8888888888888888--------------------------------|
D|--6-6-------6--6-6-------6-5-6-6-8888888888888888--------------------------------|
A|--6-6-x-x-x-4--6-6-------4-3-4-6-6666666666666666--------------------------------|
E|--4-4-x-x-x----4-4-------------4-------------------------------------------------|


Chorus:
e|---------------------------------------------------------------------------------|
B|---------------------------------------------------------------------------------|
G|---------8-8-88--------6-6-66--------8-8-88----------88888888--------------------|
D|--6-6-66-8-8-88-6-6-66-6-6-66-6-6-66-8-8-88-6-6-66-6-88888888--------------------|
A|--6-6-66-6-6-66-6-6-66-4-4-44-6-6-66-6-6-66-6-6-66-6-66666666--------------------|
E|--4-4-44--------4-4-44--------4-4-44--------4-4-44-4-----------------------------|

e|---------------------------------------------------------------------------------|
B|---------------------------------------------------------------------------------|
G|---------8-8-88--------6-6-66--------8-8-88--------------------------------------|
D|--6-6-66-8-8-88-6-6-66-6-6-66-6-6-66-8-8-88--------------------------------------|
A|--6-6-66-6-6-66-6-6-66-4-4-44-6-6-66-6-6-66--------------------------------------|
E|--4-4-44--------4-4-44--------4-4-44---------------------------------------------|


Verse 2:
e|---------------------------------------------------------------------------------|
B|---------------------------------------------------------------------------------|
G|------------6-----------6-6-66666-66---------6-----------------------------------|
D|--6-6-------6-6-6-------6-6-66666-66-6-6-----6-----------------------------------| X4
A|--6-6-x-x-x-4-6-6-x-x-x-4-4-44444-44-6-6-x-x-4-----------------------------------|
E|--4-4-x-x-x---4-4-x-x-x--------------4-4-x-x-------------------------------------|


Bridge:
e|---------------------------------------------------------------------------------|
B|---------------------------------------------------------------------------------|
G|--6-6--6-6-------------6-666-666-666-66------------------------------------------|
D|--6-6--6-6-6-6--6-6-4--6-666-666-666-66-6-666-666-666-4--------------------------|
A|--4-4--4-4-6-6--6-6-4--4-444-444-444-44-6-666-666-666-4--------------------------|
E|-----------4-4--4-4-2-------------------4-444-444-444-2--------------------------|

e|---------------------------------------------------------------------------------|
B|---------------------------------------------------------------------------------|
G|--6-6--6-6-------8-1010101010--6--5--6-----8-8-8-8-8-8-8-8-----------------------|
D|--6-6--6-6--6-6--8-1010101010--6--5--6--6--8-8-8-8-8-8-8-8-----------------------|
A|--4-4--4-4--6-6--6-8-8-8-8-8-8-4--3--4--6--6-6-6-6-6-6-6-6-----------------------|
E|------------4-4-------------------------4----------------------------------------|


Solo:
e|-------------------------------------------------4-------------------------------|
B|------------------------------------------------4-4-6b6-4------------------------|
G|---------1~~1-0-1-3~~3-1-3-5~~5-3-5-6~~6-5-6--6b----------6-6b6-4-4-6>4-4--------|
D|-----------------------------------------------------------------6-------6-------|
A|---------------------------------------------------------------------------------|
E|--\\12\\-------------------------------------------------------------------------|

e|------4--------------------------------------------------------------------------|
B|----4--7b~b~b~b------9~~9-8-9-11~~11-9-11-13~~13-11-13-14~~14-11-13-14~13~14~----|
G|--6b-------------------------------------------------------------------------13--|
D|---------------------------------------------------------------------------------|
A|---------------------------------------------------------------------------------|
E|---------------\\12\\------------------------------------------------------------|

e|-----------15~~15-16-18~~18-20-21-15-22b~~---------------------------------------|
B|--16~~16-18----------------------------------------------------------------------|
G|---------------------------------------------------------------------------------|
D|---------------------------------------------------------------------------------|
A|---------------------------------------------------------------------------------|
E|---------------------------------------------------------------------------------|


Outro:
e|---------------------------------------------------------------------------------|
B|---------------------------------------------------------------------------------|
G|---------8-8-88--------8888888--------8-8-88-------6-----------------------------|
D|--6-6-66-8-8-88-6-6-66-8888888-6-6-66-8-8-88--6-6--6-6---------------------------|
A|--6-6-66-6-6-66-6-6-66-6666666-6-6-66-6-6-66--6-6--4-6---------------------------|
E|--4-4-44--------4-4-44---------4-4-44---------4-4----4---------------------------|


KEY: x = hit strings with pick
~ = vibrate string
\\ = slide down fretboard
b = bend string
b~ = bend string and vibrate


SONG ORDER:
- Intro/Verse
- Pre-Chorus
- Chorus
- Verse 2
- Pre-Chorus
- Chorus
- Bridge
- Solo (Chorus played underneath)
- Verse
- Pre-Chorus
- Chorus
- Outro


< Back to album: ¡UNO!
Did we miss something? Submit News.
December 2017
S M T W T F S
     12
3456789
10111213141516
17181920212223
24252627282930
31
Happening this month:
Dec 09:
Happy Birthday Tre Cool! He turns 45 today.
Dec 25:
Merry Christmas!
Poll