Brutal Love (song lyrics & info)
Track 1 on ¡TRÉ!
Released 2012
Brutal Love
Track 1 on ¡UNO!
Released 2012

Standard Tuning


Intro:

e|----------------------------------------------------------------------|
B|----------------------------------------------------------------------|
G|-----5-----5-----5-----5----------------------------------------------|
D|----6-6---6-6---6-6---6-6---------------------------------------------|
A|---6---6-6---6-6---6-6---6--------------------------------------------|
E|--4-----4-----4-----4-----4-------------------------------------------|


Verse (Arpeggiated):

e|----------------------------------------------------------------------|
B|------------------8-----8-------------------6-----6-------------------|
G|-----5-----5-----8-8---8-8-----5-----5-----6-6---6-6------------------|
D|----6-6---6-6---8---8-8---8---6-6---6-6---6---6-6---6-----------------|
A|---6---6-6---6-6-----6-------6---6-6---6-4-----4----------------------|
E|--4-----4-------------------4-----4-----------------------------------|

e|----------------------------------------------------------------------|
B|------------------8-----8---------------------------------------------|
G|-----5-----5-----8-8---8-8-----5-----5-----5-----5--------------------|
D|----6-6---6-6---8---8-8---8---6-6---6-6---6-6---6-6-------------------|
A|---6---6-6---6-6-----6-------6---6-6---6-6---6-6---6------------------|
E|--4-----4-------------------4-----4-----4-----4-----4-----------------|


Verse 2:

e|----------------------------------------------------------------------|
B|------------------8-----8-------------------6-----6-------------------|
G|-----5-----5-----8-8---8-8-----5-----5-----6-6---6-6------------------|
D|----6-6---6-6---8---8-8---8---6-6---6-6---6---6-6---6-----------------|
A|---6---6-6---6-6-----6-------6---6-6---6-4-----4----------------------|
E|--4-----4-------------------4-----4-----------------------------------|

e|----------------------------------------------------------------------|
B|------------------8-----8-------------------8-----8-------------------|
G|-----5-----5-----8-8---8-8-----5-----5-----8-8---8-8------------------|
D|----6-6---6-6---8---8-8---8---6-6---6-6---8---8-8---8-----------------|
A|---6---6-6---6-6-----6-------6---6-6---6-6-----6----------------------|
E|--4-----4-------------------4-----4-----------------------------------|


Verse 3:

Guitar 1:
e|----------------------------------------------------------------------|
B|------------------8-----8-------------------6-----6-------------------|
G|-----5-----5-----8-8---8-8-----5-----5-----6-6---6-6------------------|
D|----6-6---6-6---8---8-8---8---6-6---6-6---6---6-6---6-----------------|
A|---6---6-6---6-6-----6-------6---6-6---6-4-----4----------------------|
E|--4-----4-------------------4-----4-----------------------------------|

e|----------------------------------------------------------------------|
B|------------------8-----8---------------------------------------------|
G|-----5-----5-----8-8---8-8-----5-----5-----5-----5--------------------|
D|----6-6---6-6---8---8-8---8---6-6---6-6---6-6---6-6-------------------|
A|---6---6-6---6-6-----6-------6---6-6---6-6---6-6---6------------------|
E|--4-----4-------------------4-----4-----4-----4-----4-----------------|

Guitar 2:
e|--4-----4-4-----------------4-----4-4---------------------------------|
B|--4-----4-4----8-----8-8----4-----4-4---6-----6-6---------------------|
G|--5-----5-5----8-----8-8----5-----5-5---6-----6-6---------------------|
D|--6-----6-6----8-----8-8----6-----6-6---6-----6-6---------------------|
A|----------------------------------------------------------------------|
E|----------------------------------------------------------------------|

e|--4-----4-4-----------------4-----4-4---------------------------------|
B|--4-----4-4----8-----8-8----4-----4-4----8-----8-8--------------------|
G|--5-----5-5----8-----8-8----5-----5-5----8-----8-8--------------------|
D|--6-----6-6----8-----8-8----6-----6-6----8-----8-8--------------------|
A|----------------------------------------------------------------------|
E|----------------------------------------------------------------------|


Pre-Chorus 1:

e|----------------------------------------------------------------------|
B|-----6-----6-------------------8-----8--------------------------------|
G|----6-6---6-6-----5-----5-----8-8---8-8-----5-----5-------------------|
D|---6---6-6---6---6-6---6-6---8---8-8---8---6-6---4-4------------------|
A|--4-----4-------6---6-6---6-6-----6-------6---6-6---6-----------------|
E|---------------4-----4-------------------4-----4-----4----------------|

e|----------------------------------------------------------------------|
B|-----6-----6--------------1------6-----6---8--------------------------|
G|----6-6---6-6-----5------1-1----6-6---6-6--8--------------------------|
D|---6---6-6---6---6------3---3--6---6-6---6-8--------------------------|
A|--4-----4-------6-------------4-----4------6--------------------------|
E|---------------4---4-3-1----------------------------------------------|


Solo:

Guitar 1:
e|----------------------------------------------------------------------|
B|----------------------------------------------------------------------|
G|-----8/10--8--8-8h10--8-10-8------------------------------------------|
D|--6~-------------------------6_----6~--/10--\5-5-5-5-6--/10--10-8-10--| X2
A|----------------------------------------------------------------------|
E|----------------------------------------------------------------------|

Guitar 2:
e|----------------------------------------------------------------------|
B|----------------------------------------------------------------------|
G|---------555555-666666-999999---------------666666-888----------------|
D|--666666-555555-666666-999999-666666-555555-666666-888-777------------|
A|--666666-333333-444444-777777-666666-555555-444444-666-777------------|
E|--444444----------------------444444-333333------------555------------|


Pre-Chorus 2:

e|----------------------------------------------------------------------|
B|----------------------------------------------------------------------|
G|--6666-6666------------888888888888-----------------------------------|
D|--6666-6666-6666-66666-888888888888-666666666666----------------------|
A|--4444-4444-6666-66666-666666666666-666666666666----------------------|
E|------------4444-44444--------------444444444444----------------------|

e|----------------------------------------------------------------------|
B|----------------------------------------------------------------------|
G|--6666-6666----------------666666666666-888888-999999-----------------|
D|--6666-6666-66666---333333-666666666666-888888-999999-----------------|
A|--4444-4444-66666---333333-444444444444-666666-777777-----------------|
E|------------44444-3-111111--------------------------------------------|

(Chorus and Outro are the same chord forms as the rhythm guitar for the solo, except everything is played a half-step [one fret] up.)


KEY: ~ = let ring
/ = slide up
\ = slide down
_ = vibrato
h = hammer-on
p = pull-off


SONG ORDER:
- Intro
- Verse (Arpeggiated)
- Verse 2
- Verse 3
- Pre-Chorus 1
- Solo
- Pre-Chorus 2
- Chorus (X4) (same as rhythm for solo, except half-step [1 fret] up)


< Back to album: ¡TRÉ!
Did we miss something? Submit News.
December 2017
S M T W T F S
     12
3456789
10111213141516
17181920212223
24252627282930
31
Happening this month:
Dec 09:
Happy Birthday Tre Cool! He turns 45 today.
Dec 25:
Merry Christmas!
Poll