Stay The Night (song lyrics & info)
Track 2 on ¡UNO!
Released 2012
The Green Day Authority


Standard Tuning

Intro/Outro:
e|-------------------------------|-------------------------------------|
B|-------------------------------|-------------------------------------|
G|--11-11-12-14-14-12-11-11-9-11-|-11-11-12-14-14-14-14----------------|
D|--0--0--0--0--0--0--0--0--0-0--|-0--0--0--0--0--0--0--11-11-12-14----|
A|-------------------------------|----------------------0--0--0--0-----|
E|-------------------------------|-------------------------------------|

e|-------------------------------|-------------------------------------|
B|---------------------3-3-1-0---|-------------------------------------|
G|--11-11-12-14-14-14--0-0-0-0---|-------------------------------------|
D|--0--0--0--0--0--0-------------|-11-11-12-14-12-11-------------------|
A|-------------------------------|-0--0--0--0--0--0--------------------|
E|-------------------------------|-------------------------------------|


Main Riff/Chorus:
e|---------------------------------------------------------------------|
B|---------------------------------------------------------------------|
G|--7--7-7-7-7-7-7----------7--7-7-------------------------------------|
D|--7--7-7-7-7-7-7--7--7-7--7--7-7--5--5-5-5-5-5-5--7--7-7-7-7-7-7-----| X2
A|--5--5-5-5-5-5-5--7--7-7--5--5-5--5--5-5-5-5-5-5--7--7-7-7-7-7-7-----|
E|------------------5--5-5----------3--3-3-3-3-3-3--5--5-5-5-5-5-5-----|


Verse
e|---------------------------------------------------------------------|
B|---------------------------------------------------------------------|
G|--7-----------------7------------------------------------------------|
D|--7-(x14)-5---------7-(x16)-5------7---------------------------------| X2
A|--5-------5-(x16)---5-------5-(x8)-7-(x8)----------------------------|
E|----------3-----------------3------5---------------------------------|


Pre-Chorus:
e|---------------------------------------------------------------------|
B|---------------------------------------------------------------------|
G|--4--4--4-4-4------------------7--7--7-7-7---------------------------|
D|--4--4--4-4-4--5--5-5-5-5-5-5--7--7--7-7-7--7--7-7-7-7-7-7-----------| X2
A|--2--2--2-2-2--5--5-5-5-5-5-5--5--5--5-5-5--7--7-7-7-7-7-7-----------|
E|---------------3--3-3-3-3-3-3---------------5--5-5-5-5-5-5-----------|

Solo:
e|---------------------------------------------------------------------|
B|---------------------------------------------------------------------|
G|--11-11-11-11-11-11-11-9-9-9-11-11-11-12-12-12-12-12-9-9-9-12-12-12--|
D|---0--0--0--0--0--0--0-0-0-0--0--0--0--0--0--0--0--0-0-0-0--0--0--0--|
A|---------------------------------------------------------------------|
E|---------------------------------------------------------------------|

e|---------------------------------------------------------------------|
B|---------------------------------------------------------------------|
G|--11-11-11-11-11-11-11-9-9-9-7-7-7-7/6-6/7-7/9-9-9-9-----------------|
D|---0--0--0--0--0--0--0-0-0-0-0-0-0----------------------(x2)---------|
A|-----------------------------------5/4-4/5-5/7-7-7-7-----------------|
E|---------------------------------------------------------------------|

Bridge/Breakdown, Guitar I:
e|---------------------------------------------------------------------|
B|------------------8-8-8-8-8-8-8-8-7-7-7-7-7-7-7-7-5-5-5-5-5-5-5-0----|
G|--4-4-4-4-4-4-4-4-----------------------------------------------0----|
D|---------------------------------------------------------------------|
A|---------------------------------------------------------------------|
E|---------------------------------------------------------------------|

Bridge/Breakdown, Guitar II:
e|---------------------------------------------------------------------|
B|--3-3-3-3-3-3-3-3--3-3-3-3-3-3-3-0--7-7-7-7-7-7-7-7--2-2-2-2-2-2-2-2-|
G|--4-4-4-4-4-4-4-4--0-0-0-0-0-0-0-0--7-7-7-7-7-7-7-7--2-2-2-2-2-2-2-2-|
D|---------------------------------------------------------------------| X2
A|---------------------------------------------------------------------|
E|---------------------------------------------------------------------|


KEY: x = mute string
/ = slide
~ = let note ring


SONG ORDER:
- Intro
- Main Riff
- Verse
- Pre-Chorus
- Chorus
- Main Riff
- Verse
- Pre-Chorus
- Chorus
- Intro
- Solo (with chorus underneath)
- Bridge/Breakdown
- Chorus
- Outro


< Back to album: ¡UNO!
Did we miss something? Submit News.
December 2017
S M T W T F S
     12
3456789
10111213141516
17181920212223
24252627282930
31
Happening this month:
Dec 09:
Happy Birthday Tre Cool! He turns 45 today.
Dec 25:
Merry Christmas!
Poll