Let Yourself Go (song lyrics & info)
Track 4 on ¡UNO!
Released 2012
The Green Day Authority


Standard Tuning

Intro/Verse:
e|----------------------------------------------------------------------|
B|----------------------------------------------------------------------|
G|----7-----------------------------------------------------------------|
D|--5-7-7--77777777777777-----------------------------------------------| X5
A|--3-5-7--xxxxxxxxxxxxxx-----------------------------------------------|
E|--3---5--55555555555555-----------------------------------------------|


Chorus:
e|----------------------------------------------------------------------|
B|----------------------------------------------------------------------|
G|--7-7-7777------------------------------------------------------------|
D|--7-7-7777-5-5-5555--7-7-7777-----------------------------------------| X4
A|--5-5-5555-5-5-5555--7-7-7777-----------------------------------------|
E|-----------3-3-3333--5-5-5555-----------------------------------------|


Post Chorus
e|----------------------------------------------------------------------|
B|----------------------------------------------------------------------|
G|----------------------------------------------------------------------|
D|--5-6-7--x-x-x-x-x-x-x-x-x-x-x-x-x-x----------------------------------| X2
A|--5-6-7--x-x-x-x-x-x-x-x-x-x-x-x-x-x----------------------------------|
E|--3-4-5--x-x-x-x-x-x-x-x-x-x-x-x-x-x----------------------------------|


Solo:

Part 1:
e|----------------------------------------------------------------------|
B|----------------------------------------------------------------------|
G|--7-77777--12-1212121212--9-7-6-666666666---7-77777--12--14-----------|
D|--x-xxxxx--x--x-x-x-x-x---x-x-x-xxxxxxxxx---x-xxxxx--x---x------------|
A|--5-55555--10-1010101010--7-5-4-444444444---5-55555--10--12-----------|
E|----------------------------------------------------------------------|

e|----------------------------------------------------------------------|
B|----------------------------------------------------------------------|
G|--7-77777--12-1212121212-12/14-141414141414b-14~----------------------|
D|--x-xxxxx--x--x-x-x-x-x--x--x--x-x-x-x-x-x---x------------------------|
A|--5-55555--10-1010101010-10/12-121212121212b-12~----------------------|
E|----------------------------------------------------------------------|

Part 2:
e|------------------------1010-----1010-----1010-----1010-----1010------|
B|------------------------1010-----1010-----1010-----1010-----1010------|
G|--10-10h12p10----10h12b------12b------12b------12b------12b------12b--|
D|--------------12------------------------------------------------------|
A|----------------------------------------------------------------------|
E|----------------------------------------------------------------------|

e|-------------------------------------------------------10-----10------|
B|--------------------13b-13b-13b-13b-13br10-------------10-----10------|
G|--12br-10h12p10-----------------------------12br----------12b----12b--|
D|----------------12-------------------------------14p12----------------|
A|----------------------------------------------------------------------|
E|----------------------------------------------------------------------|

e|--1010-----1010-----10------------------------------------------------|
B|--1010-----1010-----10--10-10-10------14---14-------------------------|
G|-------12b------12b-----12b12b12b--16b--16b--16br-12-14~~~~\\---------|
D|----------------------------------------------------------------------|
A|----------------------------------------------------------------------|
E|----------------------------------------------------------------------|


Post-Solo:
e|----------------------------------------------------------------------|
B|----------------------------------------------------------------------|
G|----------------------------------------------------------------------|
D|--7--77777777777777---------------------------------------------------|
A|--7--77777777777777---------------------------------------------------|
E|--5--55555555555555---------------------------------------------------|
**************


Final Post-Chorus:
e|----------------------------------------------------------------------|
B|----------------------------------------------------------------------|
G|-----------------7----------------------------------------------------|
D|--5-6-7--------5-7-7--------------------------------------------------|
A|--5-6-7--------5-5-7--------------------------------------------------|
E|--3-4-5--------3---5--------------------------------------------------|


KEY: / = slide up
\ = slide down
b = bend
* = palm-mute chord
h = hammer-on
p = pull-off
br = bend, then return
~ = let note ring


SONG ORDER:
- Intro
- Verse
- Chorus
- Post Chorus
- Verse
- Chorus
- Post Chorus
- Solo (Chorus underneath)
- Post Solo
- Chorus
- Final Post Chorus


< Back to album: ¡UNO!
Did we miss something? Submit News.
December 2017
S M T W T F S
     12
3456789
10111213141516
17181920212223
24252627282930
31
Happening this month:
Dec 09:
Happy Birthday Tre Cool! He turns 45 today.
Dec 25:
Merry Christmas!
Poll