Fell For You (song lyrics & info)
Track 6 on ¡UNO!
Released 2012
The Green Day Authority


Standard Tuning

Intro:

Guitar 1:
e|----------------------------------------------------------------------------|
B|--99---------7-------9------------------------------------------------------|
G|--99-7-------7-------9------------------------------------------------------|
D|--99-7-------7-------9------------------------------------------------------| (X2)
A|--77-7-------5-(x7)--7-(x7)-------------------------------------------------|
E|-----5-(x15)----------------------------------------------------------------|

Guitar 2:
e|-------------------5--------------------------------------------------------|
B|--5-5-5-5-5--5--77-7-7-7/9-9-99---------------------------------------------|
G|--7b7b7b7b7b-6--77-7-7-7/9-9-99---------------------------------------------|
D|----------------------------------------------------------------------------| (X2)
A|----------------------------------------------------------------------------|
E|----------------------------------------------------------------------------|


Verse:
e|----------------------------------------------------------------------------|
B|--7-------9-------7-------9-------7-------9---------------------------------|
G|--7-------9-------7-------9-------7-------9------77-------------------------|
D|--7-------9-------7-------9-------7-------9------77-------------------------|
A|--5-(x7)--7-(x7)--5-(x7)--7-(x7)--5-(x7)--7-(x5)-77-------------------------|
E|-------------------------------------------------55-------------------------|


Pre-Chorus:

e|----------------------------------------------------------------------------|
B|--7-------9----------7-------9----------7-------9----------7-------9--------|
G|--7-------9------77--7-------9------77--7-------9------77--7-------9--------|
D|--7-------9------77--7-------9------77--7-------9------77--7-------9--------|
A|--5-(x7)--7-(x5)-77--5-(x7)--7-(x5)-77--5-(x7)--7-(x5)-77--5-(x7)--7--------|
E|-----------------55-----------------55-----------------55----------0-(x15)--|


Chorus:
e|----------------------------------------------------------------------------|
B|----------7-------9----------------7-------9--------------------------------|
G|--7-------7-------9-------7--------7-------9--------------------------------|
D|--7-------7-------9-------7--------7-------9--------------------------------|
A|--7-------5-(x7)--7-(x7)--7--------5-(x7)--7-(x7)---------------------------|
E|--5-(x15)-----------------5-(x15)-------------------------------------------|


Post-Chorus:
e|----------------------------------------------------------------------------|
B|------------------2--22--33333-22------------------2--22--33333-------------|
G|------------------2--22--22222-22------------------2--22--22222-------------|
D|--4--44--44--4-2--2--22--22222-22--4--44--44--4-2--2--22--22222-------------|
A|--4--44--44--4-2--0--00--00000-00--4--44--44--4-2--0--00--00000-------------|
E|--2--22--22--2-0-------------------2--22--22--2-0---------------------------|

e|----------------------------------------------------------------------------|
B|--7--------9--------7---------9-------7-------9-----------------------------|
G|--7--------9--------7---------9-------7-------9------77---------------------|
D|--7--------9--------7---------9-------7-------9------77---------------------|
A|--5-(x16)--7-(x16)--5-(x16-)--7-(x7)--5-(x7)--7-(x5)-77---------------------|
E|-----------------------------------------------------55---------------------|


Outro:

Guitar 1:
e|----------------------------------------------------------------------------|
B|--7-------9-------7-------9-------2~------2~--------------------------------|
G|--7-------9-------7-------9-------2~--1~--2~--------------------------------|
D|--7-------9-------7-------9-------2~--2~--2~--------------------------------|
A|--5-(x7)--7-(x7)--5-(x7)--7-(x7)--0~--2~--0~--------------------------------|
E|--------------------------------------0~------------------------------------|

Guitar 2:
e|-----5----------------5-----------------------------------------------------|
B|--77-7-7-7/9-9-99--77-7-7-7/9-9-99--2~------2~------------------------------|
G|--77-7-7-7/9-9-99--77-7-7-7/9-9-99--2~--1~--2~------------------------------|
D|------------------------------------2~--2~--2~------------------------------|
A|------------------------------------0~--2~--0~------------------------------|
E|----------------------------------------0~----------------------------------|


KEY: b = bend note up
/ = slide to note
~ = let note ring


SONG ORDER:
- Intro
- Verse
- Pre-Chorus
- Chorus
- Post-Chorus
- Verse
- Pre-Chorus (Guitar 2 plays open D/E chords this time)
- Chorus
- Post-Chorus
- Chorus
- Outro


< Back to album: ¡UNO!
Did we miss something? Submit News.
December 2017
S M T W T F S
     12
3456789
10111213141516
17181920212223
24252627282930
31
Happening this month:
Dec 09:
Happy Birthday Tre Cool! He turns 45 today.
Dec 25:
Merry Christmas!
Poll