Troublemaker (song lyrics & info)
Track 8 on ¡UNO!
Released 2012
The Green Day Authority


Standard Tuning



Intro:

e|--x-----------------------------------------|
B|--x-----------------------------------------|
G|--x--------------899-----7-------899-----7--|
D|--x--------77899-899-677-7-77899-899-677-7--|
A|--x--------77899-677-677-5-77899-677-677-5--|
E|--x-(x29)--55677-----455---55677-----455----|


Verse:

e|--------------------------------------------|
B|--------------------------------------------|
G|--------899-----7---------------------------|
D|--77899-899-677-7-7-------------------------| (X8)
A|--77899-677-677-5-7-------------------------|
E|--55677-----455---5-------------------------|


Chorus:

e|---------------------------------------------|
B|---------------------------------------------|
G|---------------------------------------------|
D|--7---4~----77---4~----77---4~----77---4~----|
A|--7---4~----77---4~----77---4~----77---4~----|
E|--5-0-2~----55-0-2~----55-0-2~----55-0-2~----|


Solo:

Guitar 1:
e|---------------------------------------------------14---------------------------------------------14--------|
B|-------------------------------------------------14--14-17b-17b-17b--17b-17-14------------------14--14------|
G|--/8~--9~-11~--13~-14~--14b-/8~---16p14----14-16------------------------------16-16p14----14-16-------16-14~|
D|----------------------------------------16---------------------------------------------16-------------------|
A|------------------------------------------------------------------------------------------------------------|
E|------------------------------------------------------------------------------------------------------------|

e|----------------------------------------------------------------------------|
B|--17p14----14--17p14----14--17p14----14--17p14----14--17p14----14-14--13----|
G|--------17-----------17-----------17-----------17-----------17--------14b~--|
D|----------------------------------------------------------------------------|
A|----------------------------------------------------------------------------|
E|----------------------------------------------------------------------------|




SONG ORDER:
- Intro
- Verse
- Chorus
- Verse
- Chorus
- Solo
- Bridge
- Verse


< Back to album: ¡UNO!
Did we miss something? Submit News.
December 2017
S M T W T F S
     12
3456789
10111213141516
17181920212223
24252627282930
31
Happening this month:
Dec 09:
Happy Birthday Tre Cool! He turns 45 today.
Dec 25:
Merry Christmas!
Poll