Angel Blue (song lyrics & info)
Track 9 on ¡UNO!
Released 2012
The Green Day Authority

Standard Tuning

Intro
e|-------------------------|-----|-------------------------------------|
B|-------------------------|-----|-------------------------------------|
G|-------------9-9-9-------|-----|---11-11-11-11-11-11-11-11-----------|
D|--9-9-9~-----9-9-9-9--9--|-x3--|---11-11-11-11-11-11-11-11-----------|
A|--9-9-9~-----7-7-7-9--9--|-----|---9--9--9--9--9--9--9--9------------|
E|--7-7-7~-----------7--7--|-----|-------------------------------------|


Main Riff
e|-------------------------|-----|-------------------------------------|
B|-------------------------|-----|-------------------------------------|
G|--------------9-9-9------|-----|---11-11-11-11-11-11-11-11-----------|
D|--9-9-9-9-9-9-9-9-9-9--9-|-x3--|---11-11-11-11-11-11-11-11-----------|
A|--9-9-9-9-9-9-7-7-7-9--9-|-----|---9--9--9--9--9--9--9--9------------|
E|--7-7-7-7-7-7-------7--7-|-----|-------------------------------------|


Melody Riff
e|---------------------------------------------------------------------|
B|--7--7--7--7--------7---7~-------7--7--7--7--------------------------|
G|--9b-9b-9b-9b-(9)-8-9b--9b~------9b-9b-9b-9b-(9)-8-------------------|
D|---------------------------------------------------9~----------------|
A|---------------------------------------------------------------------|
E|---------------------------------------------------------------------|

e|---------------------------------------------------------------------|
B|--7--7--7--7--------7---7---7---11--11-11-12--11-12-11-12-11-11\-----|
G|--9b-9b-9b-9b-(9)-8-9b--9b--9b--11--11-11-11--11-11-11-11-11-11\-----|
D|---------------------------------------------------------------------|
A|---------------------------------------------------------------------|
E|---------------------------------------------------------------------|


Verse
e|---------------------------------------------------------------------|
B|---------------------------------------------------------------------|
G|--------9-9-9------------9-------11-11-------------------------------|
D|--9-----9-9-9-9--9-9-----9-------11-11---9--9-9-9-9------------------| x2
A|--9-----7-7-7-9--9-9-0-0-7-------9--9--0-9--9-9-9-9------------------|
E|--7-----------7--7-7-0-0---------------0-7--7-7-7-7------------------|


Pre-Chorus
e|---------------------------------------------------------------------|
B|---------------------------------------------------------------------|
G|--9-9-9-9-8--------------------------------------------------9-------|
D|--9-9-9-9-8---9--9-9-9-9-8---4--4-4-4-4-4-4-4-4-4-4-4-4-4----9-------| x2
A|--7-7-7-7-6---9--9-9-9-9-8---4--4-4-4-4-4-4-4-4-4-4-4-4-4----7-------|
E|------------0-7--7-7-7-7-6-0-2--2-2-2-2-2-2-2-2-2-2-2-2-2-0----------|


Chorus
e|---------------------------------------------------------------------|
B|---------------------------------------------------------------------|
G|--9------------------------------------------------------------------|
D|--9---9---4---4-4-4-4-4-4--------------------------------------------| x2
A|--7---9---4---4-4-4-4-4-4--------------------------------------------|
E|------7---2---2-2-2-2-2-2-0------------------------------------------|


Solo
e|---------------------------------------------------------------------|
B|--2\12--12-----12----12----12---12-----12----12------12---12---------|
G|----------11-----11----11----11---11-9-----9----9-8-----8----8-------|
D|---------------------------------------------------------------------|
A|---------------------------------------------------------------------|
E|---------------------------------------------------------------------|

e|---------------------------------------------------------------------|
B|--9\12----12----12----12----12-0--14b-14b-14b-14-12~~----------------|
G|------11----11----11----11-----0-------------------------------------|
D|---------------------------------------------------------------------|
A|---------------------------------------------------------------------|
E|-------------------------------------------------------16\-----------|


Bridge
e|---------------------------------------------------------------------|
B|---------------------------------------------------------------------|
G|--2-2-2-2-x-----------------9---------9------------------------------|
D|--2-2-2-2-x-2-2-2-2--2--9-9-9--9--9-9-9--9-9-------------------------|
A|--0-0-0-0-x-2-2-2-2--2--9-9-7--9--9-9-7--9-9-------------------------|
E|------------0-0-0-0--0--7-7----7--7-7----7-7-------------------------|

e|---------------------------------------------------------------------|
B|---------------------------------------------------------------------|
G|--2-2-2-2-x----------------------------------------------------------|
D|--2-2-2-2-x-2-2-2-2--2--4-4-4-4-4-4-4-4------------------------------|
A|--0-0-0-0-x-2-2-2-2--2--4-4-4-4-4-4-4-4------------------------------|
E|------------0-0-0-0--0--2-2-2-2-2-2-2-2------------------------------|
* * * * * * * *

KEY: x = mute string
* = palm mute
/ = slide
~ = let note ring

SONG ORDER:
- Intro
- Main Riff & Melody Riff
- Verse
- Pre-Chorus
- Chorus
- Main Riff & Melody Riff
- Verse
- Pre-Chorus
- Chorus
- Solo
- Bridge
- Verse
- Pre-Chorus
- Chorus
- Main Riff & Melody Riff


< Back to album: ¡UNO!
Did we miss something? Submit News.
December 2017
S M T W T F S
     12
3456789
10111213141516
17181920212223
24252627282930
31
Happening this month:
Dec 09:
Happy Birthday Tre Cool! He turns 45 today.
Dec 25:
Merry Christmas!
Poll