Rusty James (song lyrics & info)
Track 11 on ¡UNO!
Released 2012
The Green Day Authority


Standard Tuning

Intro:
e|------------------------------------------------------------------------|
B|----------10101010-9-9--------------------------------------------------|
G|--9-9-9-9--9-9-9-9-9-9-9-9-9-9------------------------------------------|
D|--9-9-9-9--9-9-9-9-9-9-9-9-9-9------------------------------------------| X6
A|--7-7-7-7--7-7-7-7-7-7-7-7-7-7------------------------------------------|
E|------------------------------------------------------------------------|


Verse (Play the first note open, then palm mute the rest):
e|------------------------------------------------------------------------|
B|------------------------------------------------------------------------|
G|--9-99999999----9-99999999----------------------------------------------|
D|--9-99999999----9-99999999----7-77777777----7-77777777------------------|
A|--7-77777777----6-66666666----7-77777777----7-77777777------------------|
E|------------------------------5-55555555----5-55555555------------------|

e|------------------------------------------------------------------------|
B|------------------------------------------------------------------------|
G|--9-99999999------------------------------------------------------------|
D|--9-99999999----6-66666666----7-77777777----9-99999999------------------| X2
A|--7-77777777----6-66666666----7-77777777----9-99999999------------------|
E|----------------4-44444444----5-55555555----7-77777777------------------|


Pre-Chorus:
e|------------------------------------------------------------------------|
B|------------------------------------------------------------------------|
G|--------------------------8888-------8888-------------------------------|
D|--444444-----666666-----777777-----999999-------------------------------|
A|--444444-----666666-----777777-----999999-------------------------------|
E|--222222-----444444-----555555-----777777-------------------------------|

e|------------------------------------------------------------------------|
B|------------------------------------------------------------------------|
G|------------------------8888---------88888888---------------------------|
D|--444444----666666----777777----9999999999999---------------------------|
A|--444444----666666----777777----9999999999999---------------------------|
E|--222222----444444----555555----7777777777777---------------------------|


Chorus:
e|------------------------------------------------------------------------|
B|------------------------------------------------------------------------|
G|--999999--------------999999--------------------------------------------|
D|--999999----999999----999999----999999----------------------------------|
A|--777777----999999----777777----999999----------------------------------|
E|------------777777--------------777777----------------------------------|

e|------------------------------------------|-----------------------------|
B|------------------------------------------|-----------------------------|
G|--666666----------------------------------|-----------------------------|
D|--666666----666666----777777----999999----|----9999999999---------------| X2
A|--444444----666666----777777----999999----|----9999999999---------------|
E|------------444444----555555----777777----|----7777777777---------------|


Post-Chorus:
e|------------------------------------------------------------------------|
B|----------10101010-9-9--------------------------------------------------|
G|--9-9-9-9--9-9-9-9-9-9-9-9-9-9------------------------------------------|
D|--9-9-9-9--9-9-9-9-9-9-9-9-9-9------------------------------------------| X2
A|--7-7-7-7--7-7-7-7-7-7-7-7-7-7------------------------------------------|
E|------------------------------------------------------------------------|


Bridge:
e|------------------------------------------------------------------------|
B|---------------------1010101099-----------------------------------------|
G|------------------99-9-9-9-9999999--------------------------------------|
D|--7-7777777777----99-9-9-9-9999999----7-7777777777----999999999999------|
A|--7-7777777777----77-7-7-7-7777777----7-7777777777----999999999999------|
E|--5-5555555555------------------------5-5555555555----777777777777------|


Solo:

Guitar 1:
e|------------------------------------------------------------------------|
B|------------------------------------------------------------------------|
G|--99999999--------------------------------------------------------------|
D|--99999999----66666666----77777777----99999999--------------------------| X2
A|--77777777----66666666----77777777----99999999--------------------------|
E|--------------44444444----55555555----77777777--------------------------|

Guitar 2:
e|------------------------------------------------------------------------|
B|------------------------------------------------------------------------|
G|------------------------------------------------------------------------|
D|------6-9---------6-9b----9-7-7-6-6-2-2----9-7-7-6-6-2-2-/-4------------| X2
A|--7-7--------6-6--------------------------------------------------------|
E|------------------------------------------------------------------------|

Both Guitars:
e|--222222----444444----555555----777777----------------------------------|
B|--222222----444444----555555----777777----------------------------------|
G|--222222----444444----666666----888888----------------------------------|
D|--444444----666666----777777----999999----------------------------------|
A|--444444----666666----777777----999999----------------------------------|
E|--222222----444444----555555----777777----------------------------------|

e|--222222----444444----555555----777777777777----------------------------|
B|--222222----444444----555555----777777777777----------------------------|
G|--222222----444444----666666----888888888888----------------------------|
D|--444444----666666----777777----999999999999----------------------------|
A|--444444----666666----777777----999999999999----------------------------|
E|--222222----444444----555555----777777777777----------------------------|


Chorus:

Part 1:
e|------------------------------------------------------------------------|
B|------------------------------------------------------------------------|
G|--9--------------9--------------666666----------------------------------|
D|--9----999999----9----999999----666666----666666----777777----999999----| X2
A|--7----999999----7----999999----444444----666666----777777----999999----|
E|-------777777---------777777--------------444444----555555----777777----|


Part 2:
e|------------------------------------------------------------------------|
B|------------------------------------------------------------------------|
G|--999999--------------999999--------------------------------------------|
D|--999999----999999----999999----999999----------------------------------|
A|--777777----999999----777777----999999----------------------------------|
E|------------777777--------------777777----------------------------------|

e|-------------------------------------------|----------------------------|
B|-------------------------------------------|----------------------------|
G|--666666-----------------------------------|----------------------------|
D|--666666----666666----777777----999999-----|----9999999999--------------| X2
A|--444444----666666----777777----999999-----|----9999999999--------------|
E|------------444444----555555----777777-----|----7777777777--------------|


Outro:

Guitar 1:
e|------------------------------------------------------------------------|
B|----------10101010-9-9--------------------------------------------------|
G|--9-9-9-9--9-9-9-9-9-9-9-9-9-9------------------------------------------|
D|--9-9-9-9--9-9-9-9-9-9-9-9-9-9------------------------------------------| X4
A|--7-7-7-7--7-7-7-7-7-7-7-7-7-7------------------------------------------|
E|------------------------------------------------------------------------|

Guitar 2:
e|------------------------------------------------------------------------|
B|------------------------------------------------------------------------|
G|------------------------------------------------------------------------|
D|--6-7-6-4----6-7-6-2-------6-7-6-4----6-7-6-4---------------------------|
A|-----------------------2------------------------------------------------|
E|------------------------------------------------------------------------|

Both Guitars:
e|------------------------------------------------------------------------|
B|------------------------------------------------------------------------|
G|--9---------------------------------------------------------------------|
D|--9---------------------------------------------------------------------|
A|--7---------------------------------------------------------------------|
E|------------------------------------------------------------------------|


KEY: / = slide up
\ = slide down
b = bend


SONG ORDER:
- Intro
- Verse
- Pre-Chorus
- Chorus
- Post-Chorus
- Verse
- Pre-Chorus
- Chorus
- Bridge
- Solo (play part 1 under part 2)
- Chorus Part 1
- Chorus Part 2
- Outro


< Back to album: ¡UNO!
Did we miss something? Submit News.
December 2017
S M T W T F S
     12
3456789
10111213141516
17181920212223
24252627282930
31
Happening this month:
Dec 09:
Happy Birthday Tre Cool! He turns 45 today.
Dec 25:
Merry Christmas!
Poll